                                                                        S      1
,,10H000503.ipt,27HNo Iges File Name specified,22HAutodesk Inventor 2012G      1
,37HAutoDesk Inventor Iges Exporter R2012,32,38,6,99,15,10H000503.ipt,  G      2
1.0D0,2,2HMM,1,.08D0,15H20160219.114558,.01D0,10000.0D0,9Hamaurizio,,11,G      3
0,,;                                                                    G      4
     406       1       0       0       1       0       0       000000000D      1
     406       0       0       1       3                               0D      2
     120       2       0       0       0       0       0       000010000D      3
     120       0       0       1       0                               0D      4
     110       3       0       0       0       0       0       000010000D      5
     110       0       0       2       0                               0D      6
     110       5       0       0       0       0       0       001010000D      7
     110       0       0       1       0                               0D      8
     504       6       0       0       0       0       0       000010001D      9
     504       0       0       3       1                               0D     10
     502       9       0       0       0       0       0       000010000D     11
     502       0       0      10       1                               0D     12
     100      19       0       0       0       0      15       000010000D     13
     100       0       0       2       0                               0D     14
     124      21       0       0       0       0       0       000000000D     15
     124       0       0       2       0                               0D     16
     508      23       0       0       0       0       0       000010000D     17
     508       0       0       1       1                               0D     18
     100      24       0       0       0       0      21       000010000D     19
     100       0       0       2       0                               0D     20
     124      26       0       0       0       0       0       000000000D     21
     124       0       0       2       0                               0D     22
     508      28       0       0       0       0       0       000010000D     23
     508       0       0       1       1                               0D     24
     510      29       0       0       0       0       0       000010000D     25
     510       0    -215       1       1                               0D     26
     116      30       0       0       0       0       0       000010000D     27
     116       0       0       1       0                               0D     28
     123      31       0       0       0       0       0       000010200D     29
     123       0       0       1       0                               0D     30
     190      32       0       0       0       0       0       000010000D     31
     190       0       0       1       1                               0D     32
     123      33       0       0       0       0       0       000010200D     33
     123       0       0       1       0                               0D     34
     100      34       0       0       0       0      37       000010000D     35
     100       0       0       2       0                               0D     36
     124      36       0       0       0       0       0       000000000D     37
     124       0       0       2       0                               0D     38
     508      38       0       0       0       0       0       000010000D     39
     508       0       0       1       1                               0D     40
     508      39       0       0       0       0       0       000010000D     41
     508       0       0       1       1                               0D     42
     510      40       0       0       0       0       0       000010000D     43
     510       0    -215       1       1                               0D     44
     120      41       0       0       0       0       0       000010000D     45
     120       0       0       1       0                               0D     46
     110      42       0       0       0       0       0       000010000D     47
     110       0       0       1       0                               0D     48
     110      43       0       0       0       0       0       001010000D     49
     110       0       0       1       0                               0D     50
     100      44       0       0       0       0      53       000010000D     51
     100       0       0       2       0                               0D     52
     124      46       0       0       0       0       0       000000000D     53
     124       0       0       2       0                               0D     54
     508      48       0       0       0       0       0       000010000D     55
     508       0       0       1       1                               0D     56
     508      49       0       0       0       0       0       000010000D     57
     508       0       0       1       1                               0D     58
     510      50       0       0       0       0       0       000010000D     59
     510       0    -215       1       1                               0D     60
     116      51       0       0       0       0       0       000010000D     61
     116       0       0       1       0                               0D     62
     123      52       0       0       0       0       0       000010200D     63
     123       0       0       1       0                               0D     64
     194      53       0       0       0       0       0       000010000D     65
     194       0       0       1       1                               0D     66
     123      54       0       0       0       0       0       000010200D     67
     123       0       0       1       0                               0D     68
     508      55       0       0       0       0       0       000010000D     69
     508       0       0       1       1                               0D     70
     100      56       0       0       0       0      73       000010000D     71
     100       0       0       2       0                               0D     72
     124      58       0       0       0       0       0       000000000D     73
     124       0       0       2       0                               0D     74
     508      60       0       0       0       0       0       000010000D     75
     508       0       0       1       1                               0D     76
     510      61       0       0       0       0       0       000010000D     77
     510       0    -215       1       1                               0D     78
     116      62       0       0       0       0       0       000010000D     79
     116       0       0       1       0                               0D     80
     123      63       0       0       0       0       0       000010200D     81
     123       0       0       1       0                               0D     82
     192      64       0       0       0       0       0       000010000D     83
     192       0       0       1       1                               0D     84
     123      65       0       0       0       0       0       000010200D     85
     123       0       0       1       0                               0D     86
     100      66       0       0       0       0      53       000010000D     87
     100       0       0       2       0                               0D     88
     508      68       0       0       0       0       0       000010000D     89
     508       0       0       1       1                               0D     90
     508      69       0       0       0       0       0       000010000D     91
     508       0       0       1       1                               0D     92
     510      70       0       0       0       0       0       000010000D     93
     510       0    -215       1       1                               0D     94
     120      71       0       0       0       0       0       000010000D     95
     120       0       0       1       0                               0D     96
     110      72       0       0       0       0       0       000010000D     97
     110       0       0       2       0                               0D     98
     110      74       0       0       0       0       0       001010000D     99
     110       0       0       2       0                               0D    100
     100      76       0       0       0       0     103       000010000D    101
     100       0       0       2       0                               0D    102
     124      78       0       0       0       0       0       000000000D    103
     124       0       0       2       0                               0D    104
     508      80       0       0       0       0       0       000010000D    105
     508       0       0       1       1                               0D    106
     100      81       0       0       0       0     109       000010000D    107
     100       0       0       2       0                               0D    108
     124      83       0       0       0       0       0       000000000D    109
     124       0       0       2       0                               0D    110
     508      85       0       0       0       0       0       000010000D    111
     508       0       0       1       1                               0D    112
     510      86       0       0       0       0       0       000010000D    113
     510       0    -215       1       1                               0D    114
     116      87       0       0       0       0       0       000010000D    115
     116       0       0       1       0                               0D    116
     123      88       0       0       0       0       0       000010200D    117
     123       0       0       1       0                               0D    118
     190      89       0       0       0       0       0       000010000D    119
     190       0       0       1       1                               0D    120
     123      90       0       0       0       0       0       000010200D    121
     123       0       0       1       0                               0D    122
     100      91       0       0       0       0     125       000010000D    123
     100       0       0       2       0                               0D    124
     124      93       0       0       0       0       0       000000000D    125
     124       0       0       2       0                               0D    126
     508      95       0       0       0       0       0       000010000D    127
     508       0       0       1       1                               0D    128
     508      96       0       0       0       0       0       000010000D    129
     508       0       0       1       1                               0D    130
     510      97       0       0       0       0       0       000010000D    131
     510       0    -215       1       1                               0D    132
     120      98       0       0       0       0       0       000010000D    133
     120       0       0       1       0                               0D    134
     110      99       0       0       0       0       0       000010000D    135
     110       0       0       1       0                               0D    136
     110     100       0       0       0       0       0       001010000D    137
     110       0       0       1       0                               0D    138
     100     101       0       0       0       0     141       000010000D    139
     100       0       0       2       0                               0D    140
     124     103       0       0       0       0       0       000000000D    141
     124       0       0       2       0                               0D    142
     508     105       0       0       0       0       0       000010000D    143
     508       0       0       1       1                               0D    144
     508     106       0       0       0       0       0       000010000D    145
     508       0       0       1       1                               0D    146
     510     107       0       0       0       0       0       000010000D    147
     510       0    -215       1       1                               0D    148
     116     108       0       0       0       0       0       000010000D    149
     116       0       0       1       0                               0D    150
     123     109       0       0       0       0       0       000010200D    151
     123       0       0       1       0                               0D    152
     194     110       0       0       0       0       0       000010000D    153
     194       0       0       1       1                               0D    154
     123     111       0       0       0       0       0       000010200D    155
     123       0       0       1       0                               0D    156
     100     112       0       0       0       0     159       000010000D    157
     100       0       0       2       0                               0D    158
     124     114       0       0       0       0       0       000000000D    159
     124       0       0       2       0                               0D    160
     508     116       0       0       0       0       0       000010000D    161
     508       0       0       1       1                               0D    162
     508     117       0       0       0       0       0       000010000D    163
     508       0       0       1       1                               0D    164
     510     118       0       0       0       0       0       000010000D    165
     510       0    -215       1       1                               0D    166
     116     119       0       0       0       0       0       000010000D    167
     116       0       0       1       0                               0D    168
     123     120       0       0       0       0       0       000010200D    169
     123       0       0       1       0                               0D    170
     192     121       0       0       0       0       0       000010000D    171
     192       0       0       1       1                               0D    172
     123     122       0       0       0       0       0       000010200D    173
     123       0       0       1       0                               0D    174
     100     123       0       0       0       0     141       000010000D    175
     100       0       0       2       0                               0D    176
     508     125       0       0       0       0       0       000010000D    177
     508       0       0       1       1                               0D    178
     508     126       0       0       0       0       0       000010000D    179
     508       0       0       1       1                               0D    180
     510     127       0       0       0       0       0       000010000D    181
     510       0    -215       1       1                               0D    182
     120     128       0       0       0       0       0       000010000D    183
     120       0       0       1       0                               0D    184
     100     129       0       0       0       0     187       000010000D    185
     100       0       0       1       0                               0D    186
     124     130       0       0       0       0       0       000000000D    187
     124       0       0       2       0                               0D    188
     110     132       0       0       0       0       0       001010000D    189
     110       0       0       1       0                               0D    190
     508     133       0       0       0       0       0       000010000D    191
     508       0       0       1       1                               0D    192
     508     134       0       0       0       0       0       000010000D    193
     508       0       0       1       1                               0D    194
     510     135       0       0       0       0       0       000010000D    195
     510       0    -215       1       1                               0D    196
     116     136       0       0       0       0       0       000010000D    197
     116       0       0       1       0                               0D    198
     123     137       0       0       0       0       0       000010200D    199
     123       0       0       1       0                               0D    200
     198     138       0       0       0       0       0       000010000D    201
     198       0       0       1       1                               0D    202
     123     139       0       0       0       0       0       000010200D    203
     123       0       0       1       0                               0D    204
     508     140       0       0       0       0       0       000010000D    205
     508       0       0       1       1                               0D    206
     508     141       0       0       0       0       0       000010000D    207
     508       0       0       1       1                               0D    208
     510     142       0       0       0       0       0       000010000D    209
     510       0    -215       1       1                               0D    210
     514     143       0       0       0       0       0       000010000D    211
     514       0       0       2       1                               0D    212
     186     145       0       0       1       0       0       000000000D    213
     186       0       0       1       0                 Solido1       0D    214
     314     146       0       0       0       0       0       000000000D    215
     314       0       8       1       0                               0D    216
406,2,0,6H000503;                                                      1P      1
120,7,5,0.0D0,6.28318530717959D0;                                      3P      2
110,119.79D0,184.005773502692D0,0.0D0,120.01D0,                        5P      3
183.87875644347D0,0.0D0;                                               5P      4
110,119.79D0,200.0D0,0.0D0,120.79D0,200.0D0,0.0D0;                     7P      5
504,12,13,11,1,11,1,19,11,2,11,2,35,11,3,11,3,51,11,4,11,4,71,         9P      6
11,5,11,5,87,11,6,11,6,101,11,7,11,7,107,11,8,11,8,123,11,9,11,        9P      7
9,139,11,10,11,10,157,11,11,11,11,175,11,12,11,12;                     9P      8
502,12,119.8D0,216.0D0,-1.95943487863577D-15,120.0D0,                 11P      9
216.115470053838D0,1.97357588181877D-15,120.0D0,                      11P     10
217.384529946162D0,-2.12899089532487D-15,54.0D0,216.0D0,              11P     11
1.95943487863577D-15,119.8D0,217.5D0,2.14313189850787D-15,            11P     12
54.0D0,217.5D0,2.14313189850787D-15,-16.0D0,.2D0,                     11P     13
1.95943487863577D-15,-16.1154700538379D0,0.0D0,                       11P     14
-1.97357588181876D-15,-17.3845299461621D0,0.0D0,                      11P     15
2.12899089532487D-15,-16.0D0,146.0D0,1.95943487863577D-15,            11P     16
-17.5D0,.2D0,-2.14313189850787D-15,-17.5D0,146.0D0,                   11P     17
2.14313189850787D-15;                                                 11P     18
100,0.0D0,0.0D0,0.0D0,-16.0D0,1.95943487863577D-15,-16.0D0,           13P     19
1.95943487863577D-15;                                                 13P     20
124,0.0D0,0.0D0,-1.0D0,119.8D0,-1.0D0,0.0D0,0.0D0,200.0D0,0.0D0,      15P     21
1.0D0,0.0D0,0.0D0;                                                    15P     22
508,1,0,9,1,1,0;                                                      17P     23
100,0.0D0,0.0D0,0.0D0,-16.1154700538379D0,1.97357588181877D-15,       19P     24
-16.1154700538379D0,1.97357588181877D-15;                             19P     25
124,0.0D0,0.0D0,1.0D0,120.0D0,-1.0D0,0.0D0,0.0D0,200.0D0,0.0D0,       21P     26
-1.0D0,0.0D0,0.0D0;                                                   21P     27
508,1,0,9,2,1,0;                                                      23P     28
510,3,2,1,17,23;                                                      25P     29
116,120.0D0,200.0D0,0.0D0,0;                                          27P     30
123,1.0D0,0.0D0,0.0D0;                                                29P     31
190,27,29,33;                                                         31P     32
123,0.0D0,0.0D0,-1.0D0;                                               33P     33
100,0.0D0,0.0D0,0.0D0,-17.3845299461621D0,2.12899089532487D-15,       35P     34
-17.3845299461621D0,2.12899089532487D-15;                             35P     35
124,0.0D0,0.0D0,-1.0D0,120.0D0,-1.0D0,0.0D0,0.0D0,200.0D0,0.0D0,      37P     36
1.0D0,0.0D0,0.0D0;                                                    37P     37
508,1,0,9,3,0,0;                                                      39P     38
508,1,0,9,2,0,0;                                                      41P     39
510,31,2,1,39,41;                                                     43P     40
120,49,47,0.0D0,6.28318530717959D0;                                   45P     41
110,50.71D0,184.0D0,0.0D0,123.09D0,184.0D0,0.0D0;                     47P     42
110,50.71D0,200.0D0,0.0D0,51.71D0,200.0D0,0.0D0;                      49P     43
100,0.0D0,0.0D0,0.0D0,-16.0D0,1.95943487863577D-15,-16.0D0,           51P     44
1.95943487863577D-15;                                                 51P     45
124,0.0D0,0.0D0,-1.0D0,54.0D0,-1.0D0,0.0D0,0.0D0,200.0D0,0.0D0,       53P     46
1.0D0,0.0D0,0.0D0;                                                    53P     47
508,1,0,9,4,1,0;                                                      55P     48
508,1,0,9,1,0,0;                                                      57P     49
510,45,2,1,55,57;                                                     59P     50
116,119.9D0,200.0D0,0.0D0,0;                                          61P     51
123,-1.0D0,0.0D0,0.0D0;                                               63P     52
194,61,63,17.442264973081D0,30.0000000000019D0,67;                    65P     53
123,0.0D0,-1.0D0,0.0D0;                                               67P     54
508,1,0,9,3,1,0;                                                      69P     55
100,0.0D0,0.0D0,0.0D0,-17.5D0,2.14313189850787D-15,-17.5D0,           71P     56
2.14313189850787D-15;                                                 71P     57
124,0.0D0,0.0D0,1.0D0,119.8D0,-1.0D0,0.0D0,0.0D0,200.0D0,0.0D0,       73P     58
-1.0D0,0.0D0,0.0D0;                                                   73P     59
508,1,0,9,5,1,0;                                                      75P     60
510,65,2,1,69,75;                                                     77P     61
116,54.0D0,200.0D0,0.0D0,0;                                           79P     62
123,1.0D0,5.38289951333409D-16,0.0D0;                                 81P     63
192,79,81,17.5D0,85;                                                  83P     64
123,0.0D0,-1.0D0,0.0D0;                                               85P     65
100,0.0D0,0.0D0,0.0D0,-17.5D0,2.14313189850787D-15,-17.5D0,           87P     66
2.14313189850787D-15;                                                 87P     67
508,1,0,9,6,0,0;                                                      89P     68
508,1,0,9,5,0,0;                                                      91P     69
510,83,2,1,89,91;                                                     93P     70
120,99,97,0.0D0,6.28318530717959D0;                                   95P     71
110,15.9942264973081D0,.21D0,0.0D0,16.1212435565298D0,-.01D0,         97P     72
0.0D0;                                                                97P     73
110,9.20341315915208D-19,.21D0,0.0D0,9.20341315915208D-19,            99P     74
-.79D0,0.0D0;                                                         99P     75
100,0.0D0,0.0D0,0.0D0,-16.0D0,1.95943487863577D-15,-16.0D0,          101P     76
1.95943487863577D-15;                                                101P     77
124,1.0D0,0.0D0,0.0D0,9.20341315915208D-19,0.0D0,0.0D0,1.0D0,        103P     78
.2D0,0.0D0,-1.0D0,0.0D0,0.0D0;                                       103P     79
508,1,0,9,7,1,0;                                                     105P     80
100,0.0D0,0.0D0,0.0D0,-16.1154700538379D0,1.97357588181876D-15,      107P     81
-16.1154700538379D0,1.97357588181876D-15;                            107P     82
124,1.0D0,0.0D0,0.0D0,9.20341315915208D-19,0.0D0,0.0D0,-1.0D0,       109P     83
0.0D0,0.0D0,1.0D0,0.0D0,0.0D0;                                       109P     84
508,1,0,9,8,1,0;                                                     111P     85
510,95,2,1,105,111;                                                  113P     86
116,0.0D0,0.0D0,0.0D0,0;                                             115P     87
123,0.0D0,-1.0D0,0.0D0;                                              117P     88
190,115,117,121;                                                     119P     89
123,0.0D0,0.0D0,-1.0D0;                                              121P     90
100,0.0D0,0.0D0,0.0D0,-17.3845299461621D0,2.12899089532487D-15,      123P     91
-17.3845299461621D0,2.12899089532487D-15;                            123P     92
124,1.0D0,0.0D0,0.0D0,9.20341315915208D-19,0.0D0,0.0D0,1.0D0,        125P     93
0.0D0,0.0D0,-1.0D0,0.0D0,0.0D0;                                      125P     94
508,1,0,9,9,0,0;                                                     127P     95
508,1,0,9,8,0,0;                                                     129P     96
510,119,2,1,127,129;                                                 131P     97
120,137,135,0.0D0,6.28318530717959D0;                                133P     98
110,16.0D0,0.0D0,0.0D0,16.0D0,153.29D0,0.0D0;                        135P     99
110,0.0D0,0.0D0,0.0D0,0.0D0,1.0D0,0.0D0;                             137P    100
100,0.0D0,0.0D0,0.0D0,-16.0D0,1.95943487863577D-15,-16.0D0,          139P    101
1.95943487863577D-15;                                                139P    102
124,1.0D0,0.0D0,0.0D0,6.71849160618102D-16,0.0D0,0.0D0,-1.0D0,       141P    103
146.0D0,0.0D0,1.0D0,0.0D0,0.0D0;                                     141P    104
508,1,0,9,10,0,0;                                                    143P    105
508,1,0,9,7,0,0;                                                     145P    106
510,133,2,1,143,145;                                                 147P    107
116,9.20341315915208D-19,.1D0,0.0D0,0;                               149P    108
123,0.0D0,1.0D0,0.0D0;                                               151P    109
194,149,151,17.442264973081D0,29.9999999999999D0,155;                153P    110
123,1.0D0,0.0D0,0.0D0;                                               155P    111
100,0.0D0,0.0D0,0.0D0,-17.5D0,2.14313189850787D-15,-17.5D0,          157P    112
2.14313189850787D-15;                                                157P    113
124,1.0D0,0.0D0,0.0D0,9.20341315915208D-19,0.0D0,0.0D0,-1.0D0,       159P    114
.2D0,0.0D0,1.0D0,0.0D0,0.0D0;                                        159P    115
508,1,0,9,11,1,0;                                                    161P    116
508,1,0,9,9,1,0;                                                     163P    117
510,153,2,1,161,163;                                                 165P    118
116,0.0D0,0.0D0,0.0D0,0;                                             167P    119
123,4.60170657957604D-18,1.0D0,0.0D0;                                169P    120
192,167,169,17.5D0,173;                                              171P    121
123,1.0D0,0.0D0,0.0D0;                                               173P    122
100,0.0D0,0.0D0,0.0D0,-17.5D0,2.14313189850787D-15,-17.5D0,          175P    123
2.14313189850787D-15;                                                175P    124
508,1,0,9,12,1,0;                                                    177P    125
508,1,0,9,11,0,0;                                                    179P    126
510,171,2,1,177,179;                                                 181P    127
120,189,185,0.0D0,6.28318530717959D0;                                183P    128
100,0.0D0,0.0D0,0.0D0,16.0D0,0.0D0,16.0D0,0.0D0;                     185P    129
124,-1.0D0,0.0D0,0.0D0,0.0D0,0.0D0,0.0D0,1.0D0,146.0D0,0.0D0,        187P    130
1.0D0,0.0D0,-9.79717439317883D-16;                                   187P    131
110,54.0D0,146.0D0,0.0D0,54.0D0,146.0D0,1.0D0;                       189P    132
508,1,0,9,4,0,0;                                                     191P    133
508,1,0,9,10,1,0;                                                    193P    134
510,183,2,1,191,193;                                                 195P    135
116,54.0D0,146.0D0,0.0D0,0;                                          197P    136
123,0.0D0,0.0D0,-1.0D0;                                              199P    137
198,197,199,54.0D0,17.5D0,203;                                       201P    138
123,-1.0D0,0.0D0,0.0D0;                                              203P    139
508,1,0,9,6,1,0;                                                     205P    140
508,1,0,9,12,0,0;                                                    207P    141
510,201,2,1,205,207;                                                 209P    142
514,12,25,1,43,1,59,1,77,1,93,1,113,1,131,1,147,1,165,1,181,1,       211P    143
195,1,209,1;                                                         211P    144
186,211,1,0;                                                         213P    145
314,63.9216005802155D0,63.9216005802155D0,68.6275005340576D0,;       215P    146
S      1G      4D    216P    146                                        T      1
